ISO-10303-21;
HEADER;
FILE_DESCRIPTION (( 'STEP AP203' ),
    '1' );
FILE_NAME ('Q-QZWP-R4-20-405-M.STEP',
    '2020-12-23T01:25:44',
    ( '' ),
    ( '' ),
    'SwSTEP 2.0',
    'SolidWorks 2020',
    '' );
FILE_SCHEMA (( 'CONFIG_CONTROL_DESIGN' ));
ENDSEC;

DATA;
#1 = EDGE_LOOP ( 'NONE', ( #113, #68 ) ) ;
#2 = COORDINATED_UNIVERSAL_TIME_OFFSET ( 8, 0, .AHEAD. ) ;
#3 = AXIS2_PLACEMENT_3D ( 'NONE', #11, #223, #181 ) ;
#4 = ORIENTED_EDGE ( 'NONE', *, *, #100, .F. ) ;
#5 = EDGE_LOOP ( 'NONE', ( #269, #193, #8, #171 ) ) ;
#6 = EDGE_LOOP ( 'NONE', ( #318, #83, #239, #316 ) ) ;
#7 = APPROVAL ( #129, 'UNSPECIFIED' ) ;
#8 = ORIENTED_EDGE ( 'NONE', *, *, #202, .F. ) ;
#9 = APPROVAL_PERSON_ORGANIZATION ( #188, #34, #105 ) ;
#10 = FACE_OUTER_BOUND ( 'NONE', #82, .T. ) ;
#11 = CARTESIAN_POINT ( 'NONE',  ( -1.614212418857619014, 0.000000000000000000, 0.000000000000000000 ) ) ;
#12 = CARTESIAN_POINT ( 'NONE',  ( -1.614212418857619014, 0.000000000000000000, 0.000000000000000000 ) ) ;
#13 = LINE ( 'NONE', #175, #241 ) ;
#14 = CIRCLE ( 'NONE', #103, 10.00000000000000000 ) ;
#15 = DIRECTION ( 'NONE',  ( -1.000000000000000000, -0.000000000000000000, -0.000000000000000000 ) ) ;
#16 = CARTESIAN_POINT ( 'NONE',  ( 2.999999999999999112, 12.69999999999999929, 0.000000000000000000 ) ) ;
#17 = EDGE_CURVE ( 'NONE', #93, #246, #265, .T. ) ;
#18 = CARTESIAN_POINT ( 'NONE',  ( -1.614212418857619014, 1.224646799147353256E-15, -10.00000000000000000 ) ) ;
#19 = CARTESIAN_POINT ( 'NONE',  ( -1.614212418857619014, 1.555301434917138433E-15, -12.69999999999999929 ) ) ;
#20 = EDGE_CURVE ( 'NONE', #58, #289, #13, .T. ) ;
#21 = DIRECTION ( 'NONE',  ( 0.000000000000000000, 0.000000000000000000, 1.000000000000000000 ) ) ;
#22 = CARTESIAN_POINT ( 'NONE',  ( -3.000000000000000000, 10.00000000000000000, 0.000000000000000000 ) ) ;
#23 = APPROVAL_DATE_TIME ( #284, #221 ) ;
#24 = DATE_TIME_ROLE ( 'classification_date' ) ;
#25 = ORGANIZATION ( 'UNSPECIFIED', 'UNSPECIFIED', '' ) ;
#26 = EDGE_CURVE ( 'NONE', #291, #213, #270, .T. ) ;
#27 = COORDINATED_UNIVERSAL_TIME_OFFSET ( 8, 0, .AHEAD. ) ;
#28 = ORIENTED_EDGE ( 'NONE', *, *, #153, .T. ) ;
#29 = PERSON_AND_ORGANIZATION_ROLE ( 'design_supplier' ) ;
#30 = ADVANCED_FACE ( 'NONE', ( #10 ), #71, .F. ) ;
#31 = VERTEX_POINT ( 'NONE', #322 ) ;
#32 = ADVANCED_FACE ( 'NONE', ( #275 ), #119, .F. ) ;
#33 = ORIENTED_EDGE ( 'NONE', *, *, #202, .T. ) ;
#34 = APPROVAL ( #185, 'UNSPECIFIED' ) ;
#35 = ORIENTED_EDGE ( 'NONE', *, *, #245, .T. ) ;
#36 = FACE_OUTER_BOUND ( 'NONE', #215, .T. ) ;
#37 = AXIS2_PLACEMENT_3D ( 'NONE', #255, #95, #126 ) ;
#38 = CARTESIAN_POINT ( 'NONE',  ( -2.500000000000000444, 0.000000000000000000, 10.00000000000000000 ) ) ;
#39 = ADVANCED_FACE ( 'NONE', ( #36, #150 ), #325, .F. ) ;
#40 = DIRECTION ( 'NONE',  ( 0.000000000000000000, 0.000000000000000000, 1.000000000000000000 ) ) ;
#41 = CARTESIAN_POINT ( 'NONE',  ( 3.000000000000000000, 0.000000000000000000, 0.000000000000000000 ) ) ;
#42 = CARTESIAN_POINT ( 'NONE',  ( -1.614212418857619014, 0.000000000000000000, 0.000000000000000000 ) ) ;
#43 = EDGE_CURVE ( 'NONE', #213, #291, #125, .T. ) ;
#44 = CYLINDRICAL_SURFACE ( 'NONE', #279, 10.00000000000000000 ) ;
#45 = AXIS2_PLACEMENT_3D ( 'NONE', #298, #15, #40 ) ;
#46 = DIRECTION ( 'NONE',  ( 0.000000000000000000, 0.000000000000000000, 1.000000000000000000 ) ) ;
#47 = APPLICATION_CONTEXT ( 'configuration controlled 3d designs of mechanical parts and assemblies' ) ;
#48 = CARTESIAN_POINT ( 'NONE',  ( -2.500000000000000444, 0.000000000000000000, 0.000000000000000000 ) ) ;
#49 = DIRECTION ( 'NONE',  ( -1.000000000000000000, -0.000000000000000000, -0.000000000000000000 ) ) ;
#50 = DIRECTION ( 'NONE',  ( -0.000000000000000000, 0.000000000000000000, 1.000000000000000000 ) ) ;
#51 = PERSON_AND_ORGANIZATION ( #208, #25 ) ;
#52 = APPLICATION_PROTOCOL_DEFINITION ( 'international standard', 'config_control_design', 1994, #47 ) ;
#53 = ADVANCED_FACE ( 'NONE', ( #206 ), #63, .F. ) ;
#54 = DATE_AND_TIME ( #76, #232 ) ;
#55 =( NAMED_UNIT ( * ) SI_UNIT ( $, .STERADIAN. ) SOLID_ANGLE_UNIT ( ) );
#56 = AXIS2_PLACEMENT_3D ( 'NONE', #228, #274, #184 ) ;
#57 = CALENDAR_DATE ( 2020, 23, 12 ) ;
#58 = VERTEX_POINT ( 'NONE', #256 ) ;
#59 = PRODUCT_RELATED_PRODUCT_CATEGORY ( 'detail', '', ( #311 ) ) ;
#60 = VECTOR ( 'NONE', #183, 1000.000000000000000 ) ;
#61 = ORIENTED_EDGE ( 'NONE', *, *, #43, .F. ) ;
#62 = ORIENTED_EDGE ( 'NONE', *, *, #323, .T. ) ;
#63 = PLANE ( 'NONE',  #297 ) ;
#64 = LINE ( 'NONE', #19, #170 ) ;
#65 = CARTESIAN_POINT ( 'NONE',  ( -3.000000000000000000, 0.000000000000000000, 12.69999999999999929 ) ) ;
#66 = CARTESIAN_POINT ( 'NONE',  ( -1.614212418857619014, 0.000000000000000000, 0.000000000000000000 ) ) ;
#67 = CYLINDRICAL_SURFACE ( 'NONE', #210, 10.00000000000000000 ) ;
#68 = ORIENTED_EDGE ( 'NONE', *, *, #122, .F. ) ;
#69 = CARTESIAN_POINT ( 'NONE',  ( 2.500000000000000888, 0.000000000000000000, 10.00000000000000000 ) ) ;
#70 = CC_DESIGN_DATE_AND_TIME_ASSIGNMENT ( #267, #287, ( #235 ) ) ;
#71 = CYLINDRICAL_SURFACE ( 'NONE', #3, 10.00000000000000000 ) ;
#72 = CC_DESIGN_APPROVAL ( #34, ( #235 ) ) ;
#73 = FACE_OUTER_BOUND ( 'NONE', #194, .T. ) ;
#74 = CARTESIAN_POINT ( 'NONE',  ( -3.000000000000000444, 0.000000000000000000, 10.00000000000000000 ) ) ;
#75 = CARTESIAN_POINT ( 'NONE',  ( 3.000000000000000000, 1.555301434917138433E-15, -12.69999999999999929 ) ) ;
#76 = CALENDAR_DATE ( 2020, 23, 12 ) ;
#77 = EDGE_CURVE ( 'NONE', #217, #189, #64, .T. ) ;
#78 = APPROVAL_PERSON_ORGANIZATION ( #107, #7, #162 ) ;
#79 = PERSON_AND_ORGANIZATION_ROLE ( 'design_owner' ) ;
#80 = COORDINATED_UNIVERSAL_TIME_OFFSET ( 8, 0, .AHEAD. ) ;
#81 = APPROVAL_PERSON_ORGANIZATION ( #51, #221, #236 ) ;
#82 = EDGE_LOOP ( 'NONE', ( #250, #163, #191, #85 ) ) ;
#83 = ORIENTED_EDGE ( 'NONE', *, *, #313, .F. ) ;
#84 = EDGE_LOOP ( 'NONE', ( #315, #35, #178, #135 ) ) ;
#85 = ORIENTED_EDGE ( 'NONE', *, *, #111, .F. ) ;
#86 = CARTESIAN_POINT ( 'NONE',  ( 2.500000000000000888, 0.000000000000000000, 0.000000000000000000 ) ) ;
#87 = CIRCLE ( 'NONE', #197, 12.69999999999999929 ) ;
#88 = EDGE_LOOP ( 'NONE', ( #247, #62, #293, #136 ) ) ;
#89 = AXIS2_PLACEMENT_3D ( 'NONE', #238, #286, #212 ) ;
#90 = CYLINDRICAL_SURFACE ( 'NONE', #192, 12.69999999999999929 ) ;
#91 = DIRECTION ( 'NONE',  ( 0.000000000000000000, 0.000000000000000000, -1.000000000000000000 ) ) ;
#92 = FACE_OUTER_BOUND ( 'NONE', #295, .T. ) ;
#93 = VERTEX_POINT ( 'NONE', #38 ) ;
#94 = ADVANCED_FACE ( 'NONE', ( #115 ), #280, .T. ) ;
#95 = DIRECTION ( 'NONE',  ( -1.000000000000000000, -0.000000000000000000, -0.000000000000000000 ) ) ;
#96 = DIRECTION ( 'NONE',  ( -0.000000000000000000, 0.000000000000000000, 1.000000000000000000 ) ) ;
#97 = LOCAL_TIME ( 9, 25, 44.00000000000000000, #2 ) ;
#98 = CARTESIAN_POINT ( 'NONE',  ( -3.000000000000000000, 1.555301434917138433E-15, -12.69999999999999929 ) ) ;
#99 = FACE_OUTER_BOUND ( 'NONE', #5, .T. ) ;
#100 = EDGE_CURVE ( 'NONE', #58, #217, #87, .T. ) ;
#101 = DATE_AND_TIME ( #240, #248 ) ;
#102 = CC_DESIGN_PERSON_AND_ORGANIZATION_ASSIGNMENT ( #261, #134, ( #266 ) ) ;
#103 = AXIS2_PLACEMENT_3D ( 'NONE', #324, #328, #251 ) ;
#104 = SECURITY_CLASSIFICATION_LEVEL ( 'unclassified' ) ;
#105 = APPROVAL_ROLE ( '' ) ;
#106 = ADVANCED_FACE ( 'NONE', ( #277 ), #44, .F. ) ;
#107 = PERSON_AND_ORGANIZATION ( #208, #25 ) ;
#108 = AXIS2_PLACEMENT_3D ( 'NONE', #271, #117, #319 ) ;
#109 = ORIENTED_EDGE ( 'NONE', *, *, #176, .T. ) ;
#110 = ORIENTED_EDGE ( 'NONE', *, *, #111, .T. ) ;
#111 = EDGE_CURVE ( 'NONE', #93, #112, #254, .T. ) ;
#112 = VERTEX_POINT ( 'NONE', #74 ) ;
#113 = ORIENTED_EDGE ( 'NONE', *, *, #153, .F. ) ;
#114 = CC_DESIGN_APPROVAL ( #7, ( #260 ) ) ;
#115 = FACE_OUTER_BOUND ( 'NONE', #88, .T. ) ;
#116 = DESIGN_CONTEXT ( 'detailed design', #307, 'design' ) ;
#117 = DIRECTION ( 'NONE',  ( -1.000000000000000000, -0.000000000000000000, -0.000000000000000000 ) ) ;
#118 = CARTESIAN_POINT ( 'NONE',  ( -1.614212418857619014, 0.000000000000000000, 10.00000000000000000 ) ) ;
#119 = CYLINDRICAL_SURFACE ( 'NONE', #108, 10.00000000000000000 ) ;
#120 = DIRECTION ( 'NONE',  ( 0.000000000000000000, 0.000000000000000000, 1.000000000000000000 ) ) ;
#121 = EDGE_LOOP ( 'NONE', ( #33, #214 ) ) ;
#122 = EDGE_CURVE ( 'NONE', #222, #112, #131, .T. ) ;
#123 = DIRECTION ( 'NONE',  ( 1.000000000000000000, 0.000000000000000000, 0.000000000000000000 ) ) ;
#124 = DIRECTION ( 'NONE',  ( -1.000000000000000000, -0.000000000000000000, -0.000000000000000000 ) ) ;
#125 = CIRCLE ( 'NONE', #312, 10.00000000000000000 ) ;
#126 = DIRECTION ( 'NONE',  ( 0.000000000000000000, 0.000000000000000000, 1.000000000000000000 ) ) ;
#127 = CARTESIAN_POINT ( 'NONE',  ( -3.000000000000000444, 0.000000000000000000, 0.000000000000000000 ) ) ;
#128 = DATE_AND_TIME ( #57, #320 ) ;
#129 = APPROVAL_STATUS ( 'not_yet_approved' ) ;
#130 = CC_DESIGN_PERSON_AND_ORGANIZATION_ASSIGNMENT ( #133, #237, ( #235 ) ) ;
#131 = CIRCLE ( 'NONE', #198, 10.00000000000000000 ) ;
#132 = APPROVAL_DATE_TIME ( #54, #34 ) ;
#133 = PERSON_AND_ORGANIZATION ( #208, #25 ) ;
#134 = PERSON_AND_ORGANIZATION_ROLE ( 'classification_officer' ) ;
#135 = ORIENTED_EDGE ( 'NONE', *, *, #334, .F. ) ;
#136 = ORIENTED_EDGE ( 'NONE', *, *, #160, .F. ) ;
#137 = CLOSED_SHELL ( 'NONE', ( #294, #30, #32, #216, #106, #142, #166, #94, #39, #53 ) ) ;
#138 = CC_DESIGN_SECURITY_CLASSIFICATION ( #266, ( #260 ) ) ;
#139 = DIRECTION ( 'NONE',  ( -1.000000000000000000, 0.000000000000000000, -0.000000000000000000 ) ) ;
#140 = DIRECTION ( 'NONE',  ( 1.000000000000000000, 0.000000000000000000, 0.000000000000000000 ) ) ;
#141 = DIRECTION ( 'NONE',  ( -1.000000000000000000, -0.000000000000000000, -0.000000000000000000 ) ) ;
#142 = ADVANCED_FACE ( 'NONE', ( #92 ), #67, .F. ) ;
#143 = DIRECTION ( 'NONE',  ( -1.000000000000000000, -0.000000000000000000, -0.000000000000000000 ) ) ;
#144 = ADVANCED_BREP_SHAPE_REPRESENTATION ( 'Q-QZWP-R4-20-405-M', ( #172, #89 ), #156 ) ;
#145 = DIRECTION ( 'NONE',  ( 0.000000000000000000, 0.000000000000000000, 1.000000000000000000 ) ) ;
#146 = AXIS2_PLACEMENT_3D ( 'NONE', #281, #141, #46 ) ;
#147 = DIRECTION ( 'NONE',  ( 0.000000000000000000, 0.000000000000000000, 1.000000000000000000 ) ) ;
#148 = LINE ( 'NONE', #118, #180 ) ;
#149 = PRODUCT_DEFINITION_SHAPE ( 'NONE', 'NONE',  #235 ) ;
#150 = FACE_BOUND ( 'NONE', #165, .T. ) ;
#151 = DIRECTION ( 'NONE',  ( -1.000000000000000000, -0.000000000000000000, -0.000000000000000000 ) ) ;
#152 = DIRECTION ( 'NONE',  ( 0.000000000000000000, 0.000000000000000000, 1.000000000000000000 ) ) ;
#153 = EDGE_CURVE ( 'NONE', #112, #222, #253, .T. ) ;
#154 = AXIS2_PLACEMENT_3D ( 'NONE', #48, #140, #299 ) ;
#155 = FACE_BOUND ( 'NONE', #1, .T. ) ;
#156 =( GEOMETRIC_REPRESENTATION_CONTEXT ( 3 ) GLOBAL_UNCERTAINTY_ASSIGNED_CONTEXT ( ( #233 ) ) GLOBAL_UNIT_ASSIGNED_CONTEXT ( ( #204, #186, #55 ) ) REPRESENTATION_CONTEXT ( 'NONE', 'WORKASPACE' ) );
#157 = APPROVAL_DATE_TIME ( #128, #7 ) ;
#158 = CALENDAR_DATE ( 2020, 23, 12 ) ;
#159 = APPLICATION_PROTOCOL_DEFINITION ( 'international standard', 'config_control_design', 1994, #307 ) ;
#160 = EDGE_CURVE ( 'NONE', #189, #289, #285, .T. ) ;
#161 = CIRCLE ( 'NONE', #37, 12.69999999999999929 ) ;
#162 = APPROVAL_ROLE ( '' ) ;
#163 = ORIENTED_EDGE ( 'NONE', *, *, #218, .T. ) ;
#164 = PERSON_AND_ORGANIZATION_ROLE ( 'creator' ) ;
#165 = EDGE_LOOP ( 'NONE', ( #327, #244 ) ) ;
#166 = ADVANCED_FACE ( 'NONE', ( #155, #226 ), #201, .F. ) ;
#167 = ORIENTED_EDGE ( 'NONE', *, *, #17, .F. ) ;
#168 = CC_DESIGN_PERSON_AND_ORGANIZATION_ASSIGNMENT ( #332, #29, ( #260 ) ) ;
#169 = CC_DESIGN_PERSON_AND_ORGANIZATION_ASSIGNMENT ( #331, #164, ( #260 ) ) ;
#170 = VECTOR ( 'NONE', #199, 1000.000000000000000 ) ;
#171 = ORIENTED_EDGE ( 'NONE', *, *, #20, .F. ) ;
#172 = MANIFOLD_SOLID_BREP ( 'Ðý×', #137 ) ;
#173 = DIRECTION ( 'NONE',  ( 0.000000000000000000, 0.000000000000000000, 1.000000000000000000 ) ) ;
#174 = DIRECTION ( 'NONE',  ( 0.000000000000000000, 0.000000000000000000, -1.000000000000000000 ) ) ;
#175 = CARTESIAN_POINT ( 'NONE',  ( -1.614212418857619014, 0.000000000000000000, 12.69999999999999929 ) ) ;
#176 = EDGE_CURVE ( 'NONE', #246, #93, #14, .T. ) ;
#177 = DIRECTION ( 'NONE',  ( -1.000000000000000000, -0.000000000000000000, -0.000000000000000000 ) ) ;
#178 = ORIENTED_EDGE ( 'NONE', *, *, #43, .T. ) ;
#179 = CARTESIAN_POINT ( 'NONE',  ( 2.500000000000000444, 10.00000000000000000, 0.000000000000000000 ) ) ;
#180 = VECTOR ( 'NONE', #326, 1000.000000000000000 ) ;
#181 = DIRECTION ( 'NONE',  ( 0.000000000000000000, 0.000000000000000000, 1.000000000000000000 ) ) ;
#182 = DIRECTION ( 'NONE',  ( -1.000000000000000000, 0.000000000000000000, -0.000000000000000000 ) ) ;
#183 = DIRECTION ( 'NONE',  ( -1.000000000000000000, -0.000000000000000000, -0.000000000000000000 ) ) ;
#184 = DIRECTION ( 'NONE',  ( 0.000000000000000000, 0.000000000000000000, 1.000000000000000000 ) ) ;
#185 = APPROVAL_STATUS ( 'not_yet_approved' ) ;
#186 =( NAMED_UNIT ( * ) PLANE_ANGLE_UNIT ( ) SI_UNIT ( $, .RADIAN. ) );
#187 = COORDINATED_UNIVERSAL_TIME_OFFSET ( 8, 0, .AHEAD. ) ;
#188 = PERSON_AND_ORGANIZATION ( #208, #25 ) ;
#189 = VERTEX_POINT ( 'NONE', #98 ) ;
#190 = ORIENTED_EDGE ( 'NONE', *, *, #218, .F. ) ;
#191 = ORIENTED_EDGE ( 'NONE', *, *, #122, .T. ) ;
#192 = AXIS2_PLACEMENT_3D ( 'NONE', #12, #252, #278 ) ;
#193 = ORIENTED_EDGE ( 'NONE', *, *, #77, .T. ) ;
#194 = EDGE_LOOP ( 'NONE', ( #242, #61 ) ) ;
#195 = AXIS2_PLACEMENT_3D ( 'NONE', #66, #200, #300 ) ;
#196 = DIRECTION ( 'NONE',  ( -1.000000000000000000, -0.000000000000000000, -0.000000000000000000 ) ) ;
#197 = AXIS2_PLACEMENT_3D ( 'NONE', #41, #124, #249 ) ;
#198 = AXIS2_PLACEMENT_3D ( 'NONE', #305, #49, #152 ) ;
#199 = DIRECTION ( 'NONE',  ( -1.000000000000000000, -0.000000000000000000, -0.000000000000000000 ) ) ;
#200 = DIRECTION ( 'NONE',  ( -1.000000000000000000, -0.000000000000000000, -0.000000000000000000 ) ) ;
#201 = PLANE ( 'NONE',  #304 ) ;
#202 = EDGE_CURVE ( 'NONE', #289, #189, #161, .T. ) ;
#203 = CARTESIAN_POINT ( 'NONE',  ( -1.614212418857619014, 0.000000000000000000, 0.000000000000000000 ) ) ;
#204 =( LENGTH_UNIT ( ) NAMED_UNIT ( * ) SI_UNIT ( .MILLI., .METRE. ) );
#205 = AXIS2_PLACEMENT_3D ( 'NONE', #127, #177, #145 ) ;
#206 = FACE_OUTER_BOUND ( 'NONE', #314, .T. ) ;
#207 = PLANE ( 'NONE',  #317 ) ;
#208 = PERSON ( 'UNSPECIFIED', 'UNSPECIFIED', 'UNSPECIFIED', ('UNSPECIFIED'), ('UNSPECIFIED'), ('UNSPECIFIED') ) ;
#209 = SHAPE_DEFINITION_REPRESENTATION ( #149, #144 ) ;
#210 = AXIS2_PLACEMENT_3D ( 'NONE', #42, #151, #21 ) ;
#211 = VECTOR ( 'NONE', #230, 1000.000000000000000 ) ;
#212 = DIRECTION ( 'NONE',  ( 1.000000000000000000, 0.000000000000000000, 0.000000000000000000 ) ) ;
#213 = VERTEX_POINT ( 'NONE', #234 ) ;
#214 = ORIENTED_EDGE ( 'NONE', *, *, #160, .T. ) ;
#215 = EDGE_LOOP ( 'NONE', ( #4, #268 ) ) ;
#216 = ADVANCED_FACE ( 'NONE', ( #73 ), #207, .F. ) ;
#217 = VERTEX_POINT ( 'NONE', #75 ) ;
#218 = EDGE_CURVE ( 'NONE', #246, #222, #276, .T. ) ;
#219 = CIRCLE ( 'NONE', #45, 10.00000000000000000 ) ;
#220 = ORIENTED_EDGE ( 'NONE', *, *, #176, .F. ) ;
#221 = APPROVAL ( #309, 'UNSPECIFIED' ) ;
#222 = VERTEX_POINT ( 'NONE', #257 ) ;
#223 = DIRECTION ( 'NONE',  ( -1.000000000000000000, -0.000000000000000000, -0.000000000000000000 ) ) ;
#224 = LOCAL_TIME ( 9, 25, 44.00000000000000000, #187 ) ;
#225 = DIRECTION ( 'NONE',  ( 1.000000000000000000, 0.000000000000000000, 0.000000000000000000 ) ) ;
#226 = FACE_OUTER_BOUND ( 'NONE', #121, .T. ) ;
#227 = CARTESIAN_POINT ( 'NONE',  ( 2.500000000000000888, 0.000000000000000000, 0.000000000000000000 ) ) ;
#228 = CARTESIAN_POINT ( 'NONE',  ( 2.999999999999999112, 0.000000000000000000, 0.000000000000000000 ) ) ;
#229 = DIRECTION ( 'NONE',  ( -1.000000000000000000, -0.000000000000000000, -0.000000000000000000 ) ) ;
#230 = DIRECTION ( 'NONE',  ( -1.000000000000000000, -0.000000000000000000, -0.000000000000000000 ) ) ;
#231 = AXIS2_PLACEMENT_3D ( 'NONE', #227, #229, #173 ) ;
#232 = LOCAL_TIME ( 9, 25, 44.00000000000000000, #80 ) ;
#233 = UNCERTAINTY_MEASURE_WITH_UNIT (LENGTH_MEASURE( 1.000000000000000082E-05 ), #204, 'distance_accuracy_value', 'NONE');
#234 = CARTESIAN_POINT ( 'NONE',  ( 2.500000000000000888, 1.224646799147353256E-15, -10.00000000000000000 ) ) ;
#235 = PRODUCT_DEFINITION ( 'UNKNOWN', '', #260, #116 ) ;
#236 = APPROVAL_ROLE ( '' ) ;
#237 = PERSON_AND_ORGANIZATION_ROLE ( 'creator' ) ;
#238 = CARTESIAN_POINT ( 'NONE',  ( 0.000000000000000000, 0.000000000000000000, 0.000000000000000000 ) ) ;
#239 = ORIENTED_EDGE ( 'NONE', *, *, #334, .T. ) ;
#240 = CALENDAR_DATE ( 2020, 23, 12 ) ;
#241 = VECTOR ( 'NONE', #143, 1000.000000000000000 ) ;
#242 = ORIENTED_EDGE ( 'NONE', *, *, #26, .F. ) ;
#243 = EDGE_CURVE ( 'NONE', #31, #290, #310, .T. ) ;
#244 = ORIENTED_EDGE ( 'NONE', *, *, #243, .T. ) ;
#245 = EDGE_CURVE ( 'NONE', #31, #213, #303, .T. ) ;
#246 = VERTEX_POINT ( 'NONE', #321 ) ;
#247 = ORIENTED_EDGE ( 'NONE', *, *, #77, .F. ) ;
#248 = LOCAL_TIME ( 9, 25, 44.00000000000000000, #263 ) ;
#249 = DIRECTION ( 'NONE',  ( 0.000000000000000000, 0.000000000000000000, 1.000000000000000000 ) ) ;
#250 = ORIENTED_EDGE ( 'NONE', *, *, #17, .T. ) ;
#251 = DIRECTION ( 'NONE',  ( 0.000000000000000000, 0.000000000000000000, -1.000000000000000000 ) ) ;
#252 = DIRECTION ( 'NONE',  ( -1.000000000000000000, -0.000000000000000000, -0.000000000000000000 ) ) ;
#253 = CIRCLE ( 'NONE', #205, 10.00000000000000000 ) ;
#254 = LINE ( 'NONE', #282, #60 ) ;
#255 = CARTESIAN_POINT ( 'NONE',  ( -3.000000000000000000, 0.000000000000000000, 0.000000000000000000 ) ) ;
#256 = CARTESIAN_POINT ( 'NONE',  ( 3.000000000000000000, 0.000000000000000000, 12.69999999999999929 ) ) ;
#257 = CARTESIAN_POINT ( 'NONE',  ( -3.000000000000000444, 1.224646799147353256E-15, -10.00000000000000000 ) ) ;
#258 = CARTESIAN_POINT ( 'NONE',  ( 2.999999999999999112, 0.000000000000000000, 10.00000000000000000 ) ) ;
#259 = AXIS2_PLACEMENT_3D ( 'NONE', #16, #139, #96 ) ;
#260 = PRODUCT_DEFINITION_FORMATION_WITH_SPECIFIED_SOURCE ( 'ANY', '', #311, .NOT_KNOWN. ) ;
#261 = PERSON_AND_ORGANIZATION ( #208, #25 ) ;
#262 = CC_DESIGN_PERSON_AND_ORGANIZATION_ASSIGNMENT ( #335, #79, ( #311 ) ) ;
#263 = COORDINATED_UNIVERSAL_TIME_OFFSET ( 8, 0, .AHEAD. ) ;
#264 = MECHANICAL_CONTEXT ( 'NONE', #47, 'mechanical' ) ;
#265 = CIRCLE ( 'NONE', #154, 10.00000000000000000 ) ;
#266 = SECURITY_CLASSIFICATION ( '', '', #104 ) ;
#267 = DATE_AND_TIME ( #158, #224 ) ;
#268 = ORIENTED_EDGE ( 'NONE', *, *, #323, .F. ) ;
#269 = ORIENTED_EDGE ( 'NONE', *, *, #100, .T. ) ;
#270 = CIRCLE ( 'NONE', #231, 10.00000000000000000 ) ;
#271 = CARTESIAN_POINT ( 'NONE',  ( -1.614212418857619014, 0.000000000000000000, 0.000000000000000000 ) ) ;
#272 = DIRECTION ( 'NONE',  ( 0.000000000000000000, 0.000000000000000000, 1.000000000000000000 ) ) ;
#273 = CC_DESIGN_DATE_AND_TIME_ASSIGNMENT ( #101, #24, ( #266 ) ) ;
#274 = DIRECTION ( 'NONE',  ( -1.000000000000000000, -0.000000000000000000, -0.000000000000000000 ) ) ;
#275 = FACE_OUTER_BOUND ( 'NONE', #84, .T. ) ;
#276 = LINE ( 'NONE', #18, #211 ) ;
#277 = FACE_OUTER_BOUND ( 'NONE', #6, .T. ) ;
#278 = DIRECTION ( 'NONE',  ( 0.000000000000000000, 0.000000000000000000, 1.000000000000000000 ) ) ;
#279 = AXIS2_PLACEMENT_3D ( 'NONE', #203, #302, #147 ) ;
#280 = CYLINDRICAL_SURFACE ( 'NONE', #195, 12.69999999999999929 ) ;
#281 = CARTESIAN_POINT ( 'NONE',  ( 3.000000000000000000, 0.000000000000000000, 0.000000000000000000 ) ) ;
#282 = CARTESIAN_POINT ( 'NONE',  ( -1.614212418857619014, 0.000000000000000000, 10.00000000000000000 ) ) ;
#283 = CARTESIAN_POINT ( 'NONE',  ( -3.000000000000000000, 0.000000000000000000, 0.000000000000000000 ) ) ;
#284 = DATE_AND_TIME ( #308, #97 ) ;
#285 = CIRCLE ( 'NONE', #333, 12.69999999999999929 ) ;
#286 = DIRECTION ( 'NONE',  ( 0.000000000000000000, 0.000000000000000000, 1.000000000000000000 ) ) ;
#287 = DATE_TIME_ROLE ( 'creation_date' ) ;
#288 = CIRCLE ( 'NONE', #146, 12.69999999999999929 ) ;
#289 = VERTEX_POINT ( 'NONE', #65 ) ;
#290 = VERTEX_POINT ( 'NONE', #258 ) ;
#291 = VERTEX_POINT ( 'NONE', #69 ) ;
#292 = VECTOR ( 'NONE', #301, 1000.000000000000000 ) ;
#293 = ORIENTED_EDGE ( 'NONE', *, *, #20, .T. ) ;
#294 = ADVANCED_FACE ( 'NONE', ( #99 ), #90, .T. ) ;
#295 = EDGE_LOOP ( 'NONE', ( #190, #109, #110, #28 ) ) ;
#296 = CARTESIAN_POINT ( 'NONE',  ( -2.500000000000000444, 10.00000000000000000, 0.000000000000000000 ) ) ;
#297 = AXIS2_PLACEMENT_3D ( 'NONE', #296, #225, #91 ) ;
#298 = CARTESIAN_POINT ( 'NONE',  ( 2.999999999999999112, 0.000000000000000000, 0.000000000000000000 ) ) ;
#299 = DIRECTION ( 'NONE',  ( 0.000000000000000000, 0.000000000000000000, -1.000000000000000000 ) ) ;
#300 = DIRECTION ( 'NONE',  ( 0.000000000000000000, 0.000000000000000000, 1.000000000000000000 ) ) ;
#301 = DIRECTION ( 'NONE',  ( -1.000000000000000000, -0.000000000000000000, -0.000000000000000000 ) ) ;
#302 = DIRECTION ( 'NONE',  ( -1.000000000000000000, -0.000000000000000000, -0.000000000000000000 ) ) ;
#303 = LINE ( 'NONE', #330, #292 ) ;
#304 = AXIS2_PLACEMENT_3D ( 'NONE', #22, #123, #174 ) ;
#305 = CARTESIAN_POINT ( 'NONE',  ( -3.000000000000000444, 0.000000000000000000, 0.000000000000000000 ) ) ;
#306 = DIRECTION ( 'NONE',  ( -1.000000000000000000, -0.000000000000000000, -0.000000000000000000 ) ) ;
#307 = APPLICATION_CONTEXT ( 'configuration controlled 3d designs of mechanical parts and assemblies' ) ;
#308 = CALENDAR_DATE ( 2020, 23, 12 ) ;
#309 = APPROVAL_STATUS ( 'not_yet_approved' ) ;
#310 = CIRCLE ( 'NONE', #56, 10.00000000000000000 ) ;
#311 = PRODUCT ( 'Q-QZWP-R4-20-405-M', 'Q-QZWP-R4-20-405-M', '', ( #264 ) ) ;
#312 = AXIS2_PLACEMENT_3D ( 'NONE', #86, #196, #272 ) ;
#313 = EDGE_CURVE ( 'NONE', #290, #31, #219, .T. ) ;
#314 = EDGE_LOOP ( 'NONE', ( #167, #220 ) ) ;
#315 = ORIENTED_EDGE ( 'NONE', *, *, #243, .F. ) ;
#316 = ORIENTED_EDGE ( 'NONE', *, *, #26, .T. ) ;
#317 = AXIS2_PLACEMENT_3D ( 'NONE', #179, #182, #50 ) ;
#318 = ORIENTED_EDGE ( 'NONE', *, *, #245, .F. ) ;
#319 = DIRECTION ( 'NONE',  ( 0.000000000000000000, 0.000000000000000000, 1.000000000000000000 ) ) ;
#320 = LOCAL_TIME ( 9, 25, 44.00000000000000000, #27 ) ;
#321 = CARTESIAN_POINT ( 'NONE',  ( -2.500000000000000444, 1.224646799147353256E-15, -10.00000000000000000 ) ) ;
#322 = CARTESIAN_POINT ( 'NONE',  ( 2.999999999999999112, 1.224646799147353256E-15, -10.00000000000000000 ) ) ;
#323 = EDGE_CURVE ( 'NONE', #217, #58, #288, .T. ) ;
#324 = CARTESIAN_POINT ( 'NONE',  ( -2.500000000000000444, 0.000000000000000000, 0.000000000000000000 ) ) ;
#325 = PLANE ( 'NONE',  #259 ) ;
#326 = DIRECTION ( 'NONE',  ( -1.000000000000000000, -0.000000000000000000, -0.000000000000000000 ) ) ;
#327 = ORIENTED_EDGE ( 'NONE', *, *, #313, .T. ) ;
#328 = DIRECTION ( 'NONE',  ( 1.000000000000000000, 0.000000000000000000, 0.000000000000000000 ) ) ;
#329 = CC_DESIGN_APPROVAL ( #221, ( #266 ) ) ;
#330 = CARTESIAN_POINT ( 'NONE',  ( -1.614212418857619014, 1.224646799147353256E-15, -10.00000000000000000 ) ) ;
#331 = PERSON_AND_ORGANIZATION ( #208, #25 ) ;
#332 = PERSON_AND_ORGANIZATION ( #208, #25 ) ;
#333 = AXIS2_PLACEMENT_3D ( 'NONE', #283, #306, #120 ) ;
#334 = EDGE_CURVE ( 'NONE', #290, #291, #148, .T. ) ;
#335 = PERSON_AND_ORGANIZATION ( #208, #25 ) ;
ENDSEC;
END-ISO-10303-21;
